• SWDZM Women Latin Dance Shoes Standard Modern Sequins Model-UK1802 Gold Rubber Sole B0793RM8SG

  • Upper material: Made of leather and high quality sequins, Sole: Made of high quality suede, which looks very soft and exquisite.

  • Outer Material: satin

  • Size(UK)------Size(EU)------Heel to Toe(CM/Inches)
    3-----------------35------------------21.8 CM/8.58''----------
    3.5---------------36------------------22.3 CM/8.78''----------
    4-----------------36.5----------------22.8 CM/8.98''----------
    4.5---------------37------------------23.3 CM/9.17''----------
    5-----------------37.5----------------23.8 CM/9.37''----------
    5.5---------------38------------------24.3 CM/9.57''----------
    6-----------------38.5----------------24.8 CM/9.76''----------
    6.5---------------39------------------25.3 CM/9.96''----------
    7-----------------40------------------25.8 CM/10.16''----------
    How to choose the right size
    1,Stand on a piece of white paper;
    2,Draw the length from the toe to the heel;
    3,Measure the length from the toe to the heel;
    4,Find your right shoe size on size chart according to the length you measured;
    5,8-16 days delivery time for US,UK,CA and many other countries;
    Any questions,Feel free to contact us,we will try our best to guarantee that your interests will not be damaged.

  • Upper material: Made of leather and high quality sequins, Sole: Made of high quality suede, which looks very soft and exquisite.
  • Outer Material: satin
  • SWDZM Women Latin Dance Shoes Standard Modern Sequins Model-UK1802 Gold Rubber Sole B0793RM8SG

Write a review

Please login or register to review

SWDZM Women Latin Dance Shoes Standard Modern Sequins Model-UK1802 Gold Rubber Sole B0793RM8SG

  • Product Code: B0793RM8SG
  • Availability: In Stock
  • £98.95
  • £45.95

  • Ex Tax: £45.95

Available Options